BEYOND《不朽的传说》TXT赢咖2_弹唱谱

歌手:赢咖2注册 来源:未知 2020-03-23 曲谱热度:°

A song with a very nice solo. Play it with a lot of emotion to remember HIM.
The whole song is played by 2 guitars and piano, unfortunately, I cant transcribe
the piano track.
To help those not so good, Bm7 is -o-o-o <---- 2nd Fret
----o-
--o---
INTRO
acoustic plays the chord
clean electric plays the notes
C Bm7 G Bm7 C Bm7 G
e -----3~--------------------12--------------15----------10-----
B ----------10^^-10-8--------12-10^-10-8-15^----15^--10^----10^-
G -4-5----------------9-7-9-------------------------------------
D --------------------------------------------------------------
A --------------------------------------------------------------
E --------------------------------------------------------------
------------------------------------------------------------------------
VERSE1
acoustic only
e -3---3-3-3-3-3-3--0---0-0-0-0-0-0--0---0-0-0-0-0-0--2----
B -0---0-0-0-0-0-0--1---1-1-1-1-1-1--1---1-1-1-1-1-1--3----
G -0---0-0-0-0-0-0--2---2-2-2-2-2-2--0---0-0-0-0-0-0--2----
D -0---0-0-0-0-0-0--2---2-2-2-2-2-2--2---2-2-2-2-2-2--0----
A -2---2-2-2-2-2-2--0---0-0-0-0-0-0--3---3-3-3-3-3-3--0----
E -3---3-3-3-3-3-3-----------------------------------------repeat once more
------------------------------------------------------------------------
VERSE2
acoustic
e ------------------------2------------------2----0-0-0-0--2-2-2-2-
B ----------------1---------3--------1---------3--1-1-1-1--3-3-3-3-
G --------------0-------2----------0-------2------0-0-0-0--2-2-2-2-
D ------------2-------4----------2-------4--------2-2-2-2--0-0-0-0-
A ----------3------------------3------------------3-3-3-3--0-0-0-0-
E -----------------------------------------------------------------
clean electric
e -------------------2--------0-----------------
B -------------------3--------1-----------------
G -4h5p4-------------2--------0---------4h5p4---
D -------7-----------4--------2---------------7-
A ----------------------------3-----------------
E ----------------------------------------------
------------------------------------------------------------------------
CHORUS
acoustic guitar
e -3-3-3-3--0-0-0-0--2-2-2-2-2-2-2-2--3-3-3-3--0-0-0-0-0-0-0-0-0---2-
B -0-0-0-0--1-1-1-1--3-3-3-3-3-3-3-3--0-0-0-0--1-1-1-1-1-1-1-1-1---3-
G -0-0-0-0--0-0-0-0--2-2-2-2-2-2-2-2--0-0-0-0--0-0-0-0-0-0-0-0-0---2-
D -0-0-0-0--2-2-2-2--0-0-0-0-0-0-0-0--0-0-0-0--2-2-2-2-2-2-2-2-2---0-
A -2-2-2-2--3-3-3-3--0-0-0-0-0-0-0-0--2-2-2-2--3-3-3-3-3-3-3-3-3---0-
E -3-3-3-3--0-0-0-0--0-0-0-0-0-0-0-0--3-3-3-3--0-0-0-0-0-0-0-0-0---0-

e -----------------------5--5--2-----------------------------------2-
B ----------------1----3----3--3---------------------1-------------3-
G -------0------0----4------4--2------------0------0---------------2-
D -----0------2---------------------------0------2-------------------
A ---2------3---------------------------2------3---------------------
E -3----------------------------------3------------------------------
repeat VERSE1 and VERSE2
------------------------------------------------------------------------
SOLO
e -----------10--------------------------------------------------------------------
B -10^-12-13----10^^-10-8-7-8-7~---------------------------------------------------
G --------------------------------------12----14----12-----------12----14----12----
D --------------------------------12-14----14----14----14--12-14----14----14----14-
A ---------------------------------------------------------------------------------
E ---------------------------------------------------------------------------------

e --------------15-------------------17-------------------------------------------------
B -15^-15-13-15--------17^--17-19-20----20-19-------------------------------------------
G -----------------16-------------------------16-16/15-15-15/14-14-14/12-12-12-12h14p12-
D --------------------------------------------------------------------------------------
A --------------------------------------------------------------------------------------
E --------------------------------------------------------------------------------------

e -------------------------
B -------------------------
G -11h12----11h12----------
D -------14-------12---12~-
A -------------------------
E -------------------------

1.本站遵循行业规范,任何转载的曲谱和教程都会明确标注作者和来源;2.本站的原创曲谱,请转载时务必注明文章作者和来源,不尊重原创的行为我们将追究责任;3.作者投稿可能会经我们编辑修改或补充。

TXT谱 TXT赢咖2 Beyond 不朽的传说赢咖2
自动滚屏
关闭
自动滚屏